ISO-10303-21;
HEADER;
FILE_DESCRIPTION (( 'STEP AP203' ),
    '1' );
FILE_NAME ('µÝèï.STEP',
    '2024-01-16T02:53:51',
    ( '' ),
    ( '' ),
    'SwSTEP 2.0',
    'SolidWorks 2021',
    '' );
FILE_SCHEMA (( 'CONFIG_CONTROL_DESIGN' ));
ENDSEC;

DATA;
#1 = LINE ( 'NONE', #136, #212 ) ;
#2 = PRODUCT_DEFINITION_FORMATION_WITH_SPECIFIED_SOURCE ( 'ANY', '', #234, .NOT_KNOWN. ) ;
#3 = APPROVAL_ROLE ( '' ) ;
#4 = FACE_OUTER_BOUND ( 'NONE', #51, .T. ) ;
#5 = PERSON_AND_ORGANIZATION_ROLE ( 'creator' ) ;
#6 = FACE_OUTER_BOUND ( 'NONE', #331, .T. ) ;
#7 = CC_DESIGN_PERSON_AND_ORGANIZATION_ASSIGNMENT ( #8, #5, ( #49 ) ) ;
#8 = PERSON_AND_ORGANIZATION ( #19, #14 ) ;
#9 = CARTESIAN_POINT ( 'NONE',  ( 0.000000000000000000, 3.000000000000000000, -2.500000000000000000 ) ) ;
#10 = ADVANCED_FACE ( 'NONE', ( #129 ), #150, .F. ) ;
#11 = CARTESIAN_POINT ( 'NONE',  ( -6.600000000000001421, -8.572527594031473190E-16, -2.199999999999997957 ) ) ;
#12 = CARTESIAN_POINT ( 'NONE',  ( 0.000000000000000000, 0.000000000000000000, 3.000000000000000000 ) ) ;
#13 = VECTOR ( 'NONE', #59, 1000.000000000000000 ) ;
#14 = ORGANIZATION ( 'UNSPECIFIED', 'UNSPECIFIED', '' ) ;
#15 = DIRECTION ( 'NONE',  ( -0.000000000000000000, -0.000000000000000000, -1.000000000000000000 ) ) ;
#16 = ORIENTED_EDGE ( 'NONE', *, *, #73, .F. ) ;
#17 = CARTESIAN_POINT ( 'NONE',  ( 3.506943106649236074E-16, 0.3000000000000016542, -2.500000000000000000 ) ) ;
#18 = ORIENTED_EDGE ( 'NONE', *, *, #253, .T. ) ;
#19 = PERSON ( 'UNSPECIFIED', 'UNSPECIFIED', 'UNSPECIFIED', ('UNSPECIFIED'), ('UNSPECIFIED'), ('UNSPECIFIED') ) ;
#20 = ADVANCED_FACE ( 'NONE', ( #127 ), #101, .T. ) ;
#21 = DESIGN_CONTEXT ( 'detailed design', #67, 'design' ) ;
#22 = ORIENTED_EDGE ( 'NONE', *, *, #119, .T. ) ;
#23 = CARTESIAN_POINT ( 'NONE',  ( 8.673617379884034486E-16, 10.20000000000000107, 3.000000000000000000 ) ) ;
#24 = ORIENTED_EDGE ( 'NONE', *, *, #309, .F. ) ;
#25 = DIRECTION ( 'NONE',  ( 1.000000000000000000, 0.000000000000000000, 0.000000000000000000 ) ) ;
#26 = ORIENTED_EDGE ( 'NONE', *, *, #38, .T. ) ;
#27 = PERSON_AND_ORGANIZATION_ROLE ( 'creator' ) ;
#28 = ORIENTED_EDGE ( 'NONE', *, *, #262, .F. ) ;
#29 = APPROVAL_STATUS ( 'not_yet_approved' ) ;
#30 = DIRECTION ( 'NONE',  ( -1.000000000000000000, -1.298867817277495609E-16, 0.000000000000000000 ) ) ;
#31 = APPROVAL_PERSON_ORGANIZATION ( #269, #100, #210 ) ;
#32 = APPROVAL_DATE_TIME ( #61, #100 ) ;
#33 = LINE ( 'NONE', #138, #203 ) ;
#34 = CC_DESIGN_PERSON_AND_ORGANIZATION_ASSIGNMENT ( #237, #290, ( #217 ) ) ;
#35 = COORDINATED_UNIVERSAL_TIME_OFFSET ( 9, 0, .AHEAD. ) ;
#36 = CARTESIAN_POINT ( 'NONE',  ( 0.000000000000000000, 3.000000000000000000, -2.500000000000000000 ) ) ;
#37 = CALENDAR_DATE ( 2024, 16, 1 ) ;
#38 = EDGE_CURVE ( 'NONE', #260, #152, #211, .T. ) ;
#39 = CARTESIAN_POINT ( 'NONE',  ( 0.000000000000000000, 0.000000000000000000, -2.199999999999997957 ) ) ;
#40 = FACE_OUTER_BOUND ( 'NONE', #76, .T. ) ;
#41 =( NAMED_UNIT ( * ) SI_UNIT ( $, .STERADIAN. ) SOLID_ANGLE_UNIT ( ) );
#42 = CARTESIAN_POINT ( 'NONE',  ( 0.000000000000000000, 0.000000000000000000, 0.000000000000000000 ) ) ;
#43 = LOCAL_TIME ( 11, 53, 51.00000000000000000, #35 ) ;
#44 = PLANE ( 'NONE',  #126 ) ;
#45 = ORIENTED_EDGE ( 'NONE', *, *, #278, .F. ) ;
#46 = EDGE_CURVE ( 'NONE', #330, #186, #258, .T. ) ;
#47 = ORIENTED_EDGE ( 'NONE', *, *, #298, .F. ) ;
#48 = APPROVAL_PERSON_ORGANIZATION ( #192, #169, #265 ) ;
#49 = PRODUCT_DEFINITION ( 'UNKNOWN', '', #2, #21 ) ;
#50 = DIRECTION ( 'NONE',  ( 1.000000000000000000, -0.000000000000000000, -0.000000000000000000 ) ) ;
#51 = EDGE_LOOP ( 'NONE', ( #336, #249, #263, #160 ) ) ;
#52 = ORIENTED_EDGE ( 'NONE', *, *, #287, .T. ) ;
#53 = VERTEX_POINT ( 'NONE', #232 ) ;
#54 = EDGE_LOOP ( 'NONE', ( #255, #22, #45, #178 ) ) ;
#55 = CALENDAR_DATE ( 2024, 16, 1 ) ;
#56 = DIRECTION ( 'NONE',  ( -1.000000000000000000, -5.256737805990323064E-16, 0.000000000000000000 ) ) ;
#57 = CALENDAR_DATE ( 2024, 16, 1 ) ;
#58 = EDGE_CURVE ( 'NONE', #260, #306, #308, .T. ) ;
#59 = DIRECTION ( 'NONE',  ( -0.000000000000000000, -0.000000000000000000, 1.000000000000000000 ) ) ;
#60 = AXIS2_PLACEMENT_3D ( 'NONE', #23, #289, #233 ) ;
#61 = DATE_AND_TIME ( #37, #180 ) ;
#62 = CARTESIAN_POINT ( 'NONE',  ( 0.000000000000000000, 0.000000000000000000, 3.000000000000000000 ) ) ;
#63 = FACE_OUTER_BOUND ( 'NONE', #54, .T. ) ;
#64 = ADVANCED_FACE ( 'NONE', ( #79 ), #295, .F. ) ;
#65 = DIRECTION ( 'NONE',  ( 8.503546450866703280E-17, 1.000000000000000000, 0.000000000000000000 ) ) ;
#66 = LOCAL_TIME ( 11, 53, 51.00000000000000000, #170 ) ;
#67 = APPLICATION_CONTEXT ( 'configuration controlled 3d designs of mechanical parts and assemblies' ) ;
#68 = CARTESIAN_POINT ( 'NONE',  ( 8.673617379884034486E-16, 10.20000000000000107, 3.000000000000000000 ) ) ;
#69 = ORIENTED_EDGE ( 'NONE', *, *, #158, .T. ) ;
#70 = CARTESIAN_POINT ( 'NONE',  ( 8.673617379884034486E-16, 10.20000000000000107, 0.000000000000000000 ) ) ;
#71 = VECTOR ( 'NONE', #213, 1000.000000000000000 ) ;
#72 = CARTESIAN_POINT ( 'NONE',  ( 2.551063935260025405E-17, 0.3000000000000016542, -2.500000000000000000 ) ) ;
#73 = EDGE_CURVE ( 'NONE', #257, #280, #1, .T. ) ;
#74 = CARTESIAN_POINT ( 'NONE',  ( 0.000000000000000000, 0.000000000000000000, -2.500000000000000000 ) ) ;
#75 = ORIENTED_EDGE ( 'NONE', *, *, #309, .T. ) ;
#76 = EDGE_LOOP ( 'NONE', ( #311, #52, #231, #26 ) ) ;
#77 = PERSON_AND_ORGANIZATION ( #19, #14 ) ;
#78 = CC_DESIGN_APPROVAL ( #169, ( #217 ) ) ;
#79 = FACE_OUTER_BOUND ( 'NONE', #261, .T. ) ;
#80 = ORIENTED_EDGE ( 'NONE', *, *, #185, .F. ) ;
#81 = ORIENTED_EDGE ( 'NONE', *, *, #154, .F. ) ;
#82 = AXIS2_PLACEMENT_3D ( 'NONE', #9, #114, #116 ) ;
#83 = CARTESIAN_POINT ( 'NONE',  ( -6.600000000000000533, 3.000000000000000000, -2.500000000000000000 ) ) ;
#84 = PLANE ( 'NONE',  #123 ) ;
#85 = EDGE_CURVE ( 'NONE', #280, #306, #91, .T. ) ;
#86 = PERSON_AND_ORGANIZATION ( #19, #14 ) ;
#87 = DIRECTION ( 'NONE',  ( -9.184382414618873113E-17, 0.7071067811865480168, 0.7071067811865470176 ) ) ;
#88 = LINE ( 'NONE', #291, #315 ) ;
#89 = AXIS2_PLACEMENT_3D ( 'NONE', #297, #173, #30 ) ;
#90 = CALENDAR_DATE ( 2024, 16, 1 ) ;
#91 = LINE ( 'NONE', #292, #332 ) ;
#92 = CARTESIAN_POINT ( 'NONE',  ( -6.600000000000001421, -8.572527594031473190E-16, 3.000000000000000000 ) ) ;
#93 = CARTESIAN_POINT ( 'NONE',  ( -6.600000000000001421, 0.3000000000000005995, -2.500000000000000000 ) ) ;
#94 = VECTOR ( 'NONE', #302, 1000.000000000000000 ) ;
#95 = DIRECTION ( 'NONE',  ( 0.000000000000000000, 0.000000000000000000, 1.000000000000000000 ) ) ;
#96 = UNCERTAINTY_MEASURE_WITH_UNIT (LENGTH_MEASURE( 1.000000000000000082E-05 ), #176, 'distance_accuracy_value', 'NONE');
#97 = LINE ( 'NONE', #301, #276 ) ;
#98 = EDGE_CURVE ( 'NONE', #205, #207, #264, .T. ) ;
#99 = AXIS2_PLACEMENT_3D ( 'NONE', #42, #95, #25 ) ;
#100 = APPROVAL ( #29, 'UNSPECIFIED' ) ;
#101 = PLANE ( 'NONE',  #240 ) ;
#102 = ORIENTED_EDGE ( 'NONE', *, *, #221, .F. ) ;
#103 = VECTOR ( 'NONE', #177, 1000.000000000000000 ) ;
#104 = ORIENTED_EDGE ( 'NONE', *, *, #85, .T. ) ;
#105 = DIRECTION ( 'NONE',  ( -0.000000000000000000, -0.000000000000000000, 1.000000000000000000 ) ) ;
#106 = DATE_AND_TIME ( #57, #66 ) ;
#107 = ORIENTED_EDGE ( 'NONE', *, *, #172, .F. ) ;
#108 = CARTESIAN_POINT ( 'NONE',  ( -6.600000000000001421, -8.572527594031473190E-16, 3.000000000000000000 ) ) ;
#109 = CC_DESIGN_PERSON_AND_ORGANIZATION_ASSIGNMENT ( #77, #184, ( #234 ) ) ;
#110 = PERSON_AND_ORGANIZATION ( #19, #14 ) ;
#111 = PLANE ( 'NONE',  #174 ) ;
#112 = CARTESIAN_POINT ( 'NONE',  ( 2.708338984294550418E-32, 2.168404344971008868E-16, -2.199999999999998845 ) ) ;
#113 = CALENDAR_DATE ( 2024, 16, 1 ) ;
#114 = DIRECTION ( 'NONE',  ( 0.000000000000000000, -1.000000000000000000, -0.000000000000000000 ) ) ;
#115 = LOCAL_TIME ( 11, 53, 51.00000000000000000, #163 ) ;
#116 = DIRECTION ( 'NONE',  ( 0.000000000000000000, 0.000000000000000000, -1.000000000000000000 ) ) ;
#117 = CARTESIAN_POINT ( 'NONE',  ( 0.000000000000000000, 0.000000000000000000, 0.000000000000000000 ) ) ;
#118 = LINE ( 'NONE', #117, #94 ) ;
#119 = EDGE_CURVE ( 'NONE', #207, #209, #219, .T. ) ;
#120 = EDGE_LOOP ( 'NONE', ( #252, #326, #285, #282 ) ) ;
#121 = CARTESIAN_POINT ( 'NONE',  ( 0.000000000000000000, 0.000000000000000000, 3.000000000000000000 ) ) ;
#122 = ORIENTED_EDGE ( 'NONE', *, *, #58, .F. ) ;
#123 = AXIS2_PLACEMENT_3D ( 'NONE', #62, #191, #319 ) ;
#124 = DIRECTION ( 'NONE',  ( 8.503546450866699582E-17, 1.000000000000000000, 0.000000000000000000 ) ) ;
#125 = ORIENTED_EDGE ( 'NONE', *, *, #73, .T. ) ;
#126 = AXIS2_PLACEMENT_3D ( 'NONE', #222, #304, #141 ) ;
#127 = FACE_OUTER_BOUND ( 'NONE', #120, .T. ) ;
#128 = MECHANICAL_CONTEXT ( 'NONE', #247, 'mechanical' ) ;
#129 = FACE_OUTER_BOUND ( 'NONE', #153, .T. ) ;
#130 = CC_DESIGN_DATE_AND_TIME_ASSIGNMENT ( #137, #294, ( #217 ) ) ;
#131 = LINE ( 'NONE', #36, #13 ) ;
#132 = COORDINATED_UNIVERSAL_TIME_OFFSET ( 9, 0, .AHEAD. ) ;
#133 = CC_DESIGN_SECURITY_CLASSIFICATION ( #217, ( #2 ) ) ;
#134 = CARTESIAN_POINT ( 'NONE',  ( 8.673617379884034486E-16, 10.20000000000000107, 3.000000000000000000 ) ) ;
#135 = PERSON_AND_ORGANIZATION_ROLE ( 'design_supplier' ) ;
#136 = CARTESIAN_POINT ( 'NONE',  ( 8.673617379884034486E-16, 10.20000000000000107, 0.000000000000000000 ) ) ;
#137 = DATE_AND_TIME ( #55, #115 ) ;
#138 = CARTESIAN_POINT ( 'NONE',  ( 8.673617379884034486E-16, 10.20000000000000107, 3.000000000000000000 ) ) ;
#139 = ADVANCED_FACE ( 'NONE', ( #270 ), #84, .F. ) ;
#140 = DIRECTION ( 'NONE',  ( -8.503546450866703280E-17, -1.000000000000000000, -0.000000000000000000 ) ) ;
#141 = DIRECTION ( 'NONE',  ( 1.000000000000000000, 0.000000000000000000, -0.000000000000000000 ) ) ;
#142 = ADVANCED_FACE ( 'NONE', ( #6 ), #266, .F. ) ;
#143 = VERTEX_POINT ( 'NONE', #195 ) ;
#144 = LINE ( 'NONE', #74, #286 ) ;
#145 = VECTOR ( 'NONE', #254, 1000.000000000000000 ) ;
#146 = ORIENTED_EDGE ( 'NONE', *, *, #298, .T. ) ;
#147 = PLANE ( 'NONE',  #325 ) ;
#148 = ORIENTED_EDGE ( 'NONE', *, *, #185, .T. ) ;
#149 = VECTOR ( 'NONE', #105, 1000.000000000000000 ) ;
#150 = PLANE ( 'NONE',  #60 ) ;
#151 = PRODUCT_RELATED_PRODUCT_CATEGORY ( 'detail', '', ( #234 ) ) ;
#152 = VERTEX_POINT ( 'NONE', #168 ) ;
#153 = EDGE_LOOP ( 'NONE', ( #125, #81, #259, #146 ) ) ;
#154 = EDGE_CURVE ( 'NONE', #143, #280, #88, .T. ) ;
#155 = VECTOR ( 'NONE', #300, 1000.000000000000000 ) ;
#156 = PRODUCT_DEFINITION_SHAPE ( 'NONE', 'NONE',  #49 ) ;
#157 = ORIENTED_EDGE ( 'NONE', *, *, #221, .T. ) ;
#158 = EDGE_CURVE ( 'NONE', #275, #207, #242, .T. ) ;
#159 = DATE_AND_TIME ( #113, #43 ) ;
#160 = ORIENTED_EDGE ( 'NONE', *, *, #287, .F. ) ;
#161 = PERSON_AND_ORGANIZATION ( #19, #14 ) ;
#162 = CARTESIAN_POINT ( 'NONE',  ( -6.600000000000001421, 0.3000000000000014877, -2.500000000000000888 ) ) ;
#163 = COORDINATED_UNIVERSAL_TIME_OFFSET ( 9, 0, .AHEAD. ) ;
#164 = VECTOR ( 'NONE', #124, 1000.000000000000000 ) ;
#165 = VECTOR ( 'NONE', #318, 1000.000000000000000 ) ;
#166 = DIRECTION ( 'NONE',  ( -0.000000000000000000, -0.000000000000000000, -1.000000000000000000 ) ) ;
#167 = SECURITY_CLASSIFICATION_LEVEL ( 'unclassified' ) ;
#168 = CARTESIAN_POINT ( 'NONE',  ( 0.000000000000000000, 3.000000000000000000, -2.500000000000000000 ) ) ;
#169 = APPROVAL ( #288, 'UNSPECIFIED' ) ;
#170 = COORDINATED_UNIVERSAL_TIME_OFFSET ( 9, 0, .AHEAD. ) ;
#171 = DIRECTION ( 'NONE',  ( -0.000000000000000000, -0.000000000000000000, -1.000000000000000000 ) ) ;
#172 = EDGE_CURVE ( 'NONE', #143, #205, #268, .T. ) ;
#173 = DIRECTION ( 'NONE',  ( -1.298867817277495609E-16, 1.000000000000000000, 0.000000000000000000 ) ) ;
#174 = AXIS2_PLACEMENT_3D ( 'NONE', #214, #87, #193 ) ;
#175 = MANIFOLD_SOLID_BREP ( 'Êæè1', #229 ) ;
#176 =( LENGTH_UNIT ( ) NAMED_UNIT ( * ) SI_UNIT ( .MILLI., .METRE. ) );
#177 = DIRECTION ( 'NONE',  ( -0.000000000000000000, -0.000000000000000000, -1.000000000000000000 ) ) ;
#178 = ORIENTED_EDGE ( 'NONE', *, *, #274, .F. ) ;
#179 = CARTESIAN_POINT ( 'NONE',  ( -6.600000000000001421, 3.000000000000000000, 0.000000000000000000 ) ) ;
#180 = LOCAL_TIME ( 11, 53, 51.00000000000000000, #321 ) ;
#181 = LINE ( 'NONE', #68, #103 ) ;
#182 = ORIENTED_EDGE ( 'NONE', *, *, #38, .F. ) ;
#183 = ORIENTED_EDGE ( 'NONE', *, *, #278, .T. ) ;
#184 = PERSON_AND_ORGANIZATION_ROLE ( 'design_owner' ) ;
#185 = EDGE_CURVE ( 'NONE', #152, #188, #131, .T. ) ;
#186 = VERTEX_POINT ( 'NONE', #134 ) ;
#187 = ORIENTED_EDGE ( 'NONE', *, *, #154, .T. ) ;
#188 = VERTEX_POINT ( 'NONE', #323 ) ;
#189 = EDGE_LOOP ( 'NONE', ( #102, #333, #16, #24 ) ) ;
#190 = APPROVAL_DATE_TIME ( #159, #194 ) ;
#191 = DIRECTION ( 'NONE',  ( -1.000000000000000000, 8.503546450866699582E-17, 0.000000000000000000 ) ) ;
#192 = PERSON_AND_ORGANIZATION ( #19, #14 ) ;
#193 = DIRECTION ( 'NONE',  ( 0.000000000000000000, -0.7071067811865470176, 0.7071067811865480168 ) ) ;
#194 = APPROVAL ( #335, 'UNSPECIFIED' ) ;
#195 = CARTESIAN_POINT ( 'NONE',  ( -6.600000000000000533, 10.19999999999999751, 3.000000000000000000 ) ) ;
#196 = LINE ( 'NONE', #239, #71 ) ;
#197 = DIRECTION ( 'NONE',  ( 0.000000000000000000, 1.000000000000000000, 0.000000000000000000 ) ) ;
#198 = CC_DESIGN_PERSON_AND_ORGANIZATION_ASSIGNMENT ( #110, #27, ( #2 ) ) ;
#199 = DIRECTION ( 'NONE',  ( 0.000000000000000000, -0.000000000000000000, 1.000000000000000000 ) ) ;
#200 = CC_DESIGN_APPROVAL ( #100, ( #2 ) ) ;
#201 = LINE ( 'NONE', #72, #155 ) ;
#202 = CARTESIAN_POINT ( 'NONE',  ( -6.600000000000000533, 10.19999999999999751, 0.000000000000000000 ) ) ;
#203 = VECTOR ( 'NONE', #56, 1000.000000000000000 ) ;
#204 = CARTESIAN_POINT ( 'NONE',  ( 0.000000000000000000, 3.000000000000000000, -2.500000000000000000 ) ) ;
#205 = VERTEX_POINT ( 'NONE', #246 ) ;
#206 = VECTOR ( 'NONE', #166, 1000.000000000000000 ) ;
#207 = VERTEX_POINT ( 'NONE', #11 ) ;
#208 = ADVANCED_BREP_SHAPE_REPRESENTATION ( 'µÝèï', ( #175, #99 ), #303 ) ;
#209 = VERTEX_POINT ( 'NONE', #112 ) ;
#210 = APPROVAL_ROLE ( '' ) ;
#211 = LINE ( 'NONE', #204, #293 ) ;
#212 = VECTOR ( 'NONE', #244, 1000.000000000000000 ) ;
#213 = DIRECTION ( 'NONE',  ( 1.000000000000000000, -0.000000000000000000, -0.000000000000000000 ) ) ;
#214 = CARTESIAN_POINT ( 'NONE',  ( 3.506943106649236074E-16, 0.3000000000000016542, -2.500000000000000000 ) ) ;
#215 = PLANE ( 'NONE',  #89 ) ;
#216 = APPROVAL_DATE_TIME ( #313, #169 ) ;
#217 = SECURITY_CLASSIFICATION ( '', '', #167 ) ;
#218 = EDGE_CURVE ( 'NONE', #186, #143, #33, .T. ) ;
#219 = LINE ( 'NONE', #39, #271 ) ;
#220 = DIRECTION ( 'NONE',  ( 1.000000000000000000, -8.503546450866703280E-17, 0.000000000000000000 ) ) ;
#221 = EDGE_CURVE ( 'NONE', #306, #188, #196, .T. ) ;
#222 = CARTESIAN_POINT ( 'NONE',  ( 0.000000000000000000, 3.000000000000000000, -2.500000000000000000 ) ) ;
#223 = APPLICATION_PROTOCOL_DEFINITION ( 'international standard', 'config_control_design', 1994, #247 ) ;
#224 = AXIS2_PLACEMENT_3D ( 'NONE', #108, #220, #65 ) ;
#225 = EDGE_LOOP ( 'NONE', ( #183, #18, #28, #148, #75, #47, #328 ) ) ;
#226 = CC_DESIGN_PERSON_AND_ORGANIZATION_ASSIGNMENT ( #86, #135, ( #2 ) ) ;
#227 =( NAMED_UNIT ( * ) PLANE_ANGLE_UNIT ( ) SI_UNIT ( $, .RADIAN. ) );
#228 = EDGE_CURVE ( 'NONE', #275, #260, #317, .T. ) ;
#229 = CLOSED_SHELL ( 'NONE', ( #316, #139, #10, #142, #230, #20, #64, #312, #235 ) ) ;
#230 = ADVANCED_FACE ( 'NONE', ( #63 ), #215, .F. ) ;
#231 = ORIENTED_EDGE ( 'NONE', *, *, #228, .T. ) ;
#232 = CARTESIAN_POINT ( 'NONE',  ( 1.275531967630012857E-17, 0.3000000000000016542, -2.500000000000000000 ) ) ;
#233 = DIRECTION ( 'NONE',  ( 1.000000000000000000, 5.256737805990323064E-16, 0.000000000000000000 ) ) ;
#234 = PRODUCT ( 'µÝèï', 'µÝèï', '', ( #128 ) ) ;
#235 = ADVANCED_FACE ( 'NONE', ( #4 ), #111, .F. ) ;
#236 = CARTESIAN_POINT ( 'NONE',  ( 8.673617379884034486E-16, 10.20000000000000107, 3.000000000000000000 ) ) ;
#237 = PERSON_AND_ORGANIZATION ( #19, #14 ) ;
#238 = DIRECTION ( 'NONE',  ( 1.000000000000000000, 0.000000000000000000, -0.000000000000000000 ) ) ;
#239 = CARTESIAN_POINT ( 'NONE',  ( 0.000000000000000000, 3.000000000000000000, 0.000000000000000000 ) ) ;
#240 = AXIS2_PLACEMENT_3D ( 'NONE', #236, #334, #238 ) ;
#241 = SHAPE_DEFINITION_REPRESENTATION ( #156, #208 ) ;
#242 = LINE ( 'NONE', #162, #165 ) ;
#243 = DIRECTION ( 'NONE',  ( 1.000000000000000000, 1.298867817277495609E-16, 0.000000000000000000 ) ) ;
#244 = DIRECTION ( 'NONE',  ( -1.000000000000000000, -5.256737805990323064E-16, 0.000000000000000000 ) ) ;
#245 = VECTOR ( 'NONE', #140, 1000.000000000000000 ) ;
#246 = CARTESIAN_POINT ( 'NONE',  ( -6.600000000000001421, -8.572527594031473190E-16, 3.000000000000000000 ) ) ;
#247 = APPLICATION_CONTEXT ( 'configuration controlled 3d designs of mechanical parts and assemblies' ) ;
#248 = CARTESIAN_POINT ( 'NONE',  ( 8.673617379884034486E-16, 10.20000000000000107, 0.000000000000000000 ) ) ;
#249 = ORIENTED_EDGE ( 'NONE', *, *, #119, .F. ) ;
#250 = VECTOR ( 'NONE', #327, 1000.000000000000000 ) ;
#251 = LINE ( 'NONE', #121, #145 ) ;
#252 = ORIENTED_EDGE ( 'NONE', *, *, #46, .T. ) ;
#253 = EDGE_CURVE ( 'NONE', #209, #53, #201, .T. ) ;
#254 = DIRECTION ( 'NONE',  ( 1.000000000000000000, 1.298867817277495609E-16, -0.000000000000000000 ) ) ;
#255 = ORIENTED_EDGE ( 'NONE', *, *, #98, .T. ) ;
#256 = VECTOR ( 'NONE', #197, 1000.000000000000000 ) ;
#257 = VERTEX_POINT ( 'NONE', #70 ) ;
#258 = LINE ( 'NONE', #314, #164 ) ;
#259 = ORIENTED_EDGE ( 'NONE', *, *, #218, .F. ) ;
#260 = VERTEX_POINT ( 'NONE', #305 ) ;
#261 = EDGE_LOOP ( 'NONE', ( #157, #80, #182, #307 ) ) ;
#262 = EDGE_CURVE ( 'NONE', #152, #53, #144, .T. ) ;
#263 = ORIENTED_EDGE ( 'NONE', *, *, #158, .F. ) ;
#264 = LINE ( 'NONE', #92, #206 ) ;
#265 = APPROVAL_ROLE ( '' ) ;
#266 = PLANE ( 'NONE',  #224 ) ;
#267 = DATE_TIME_ROLE ( 'creation_date' ) ;
#268 = LINE ( 'NONE', #322, #245 ) ;
#269 = PERSON_AND_ORGANIZATION ( #19, #14 ) ;
#270 = FACE_OUTER_BOUND ( 'NONE', #225, .T. ) ;
#271 = VECTOR ( 'NONE', #243, 1000.000000000000000 ) ;
#272 = DIRECTION ( 'NONE',  ( -8.503546450866703280E-17, -1.000000000000000000, -0.000000000000000000 ) ) ;
#273 = DIRECTION ( 'NONE',  ( 1.000000000000000000, 0.000000000000000000, -0.000000000000000000 ) ) ;
#274 = EDGE_CURVE ( 'NONE', #205, #330, #251, .T. ) ;
#275 = VERTEX_POINT ( 'NONE', #93 ) ;
#276 = VECTOR ( 'NONE', #15, 1000.000000000000000 ) ;
#277 = LINE ( 'NONE', #17, #250 ) ;
#278 = EDGE_CURVE ( 'NONE', #330, #209, #97, .T. ) ;
#279 = LOCAL_TIME ( 11, 53, 51.00000000000000000, #132 ) ;
#280 = VERTEX_POINT ( 'NONE', #202 ) ;
#281 = APPLICATION_PROTOCOL_DEFINITION ( 'international standard', 'config_control_design', 1994, #67 ) ;
#282 = ORIENTED_EDGE ( 'NONE', *, *, #274, .T. ) ;
#283 = CC_DESIGN_DATE_AND_TIME_ASSIGNMENT ( #106, #267, ( #49 ) ) ;
#284 = ORIENTED_EDGE ( 'NONE', *, *, #228, .F. ) ;
#285 = ORIENTED_EDGE ( 'NONE', *, *, #172, .T. ) ;
#286 = VECTOR ( 'NONE', #329, 1000.000000000000000 ) ;
#287 = EDGE_CURVE ( 'NONE', #53, #275, #277, .T. ) ;
#288 = APPROVAL_STATUS ( 'not_yet_approved' ) ;
#289 = DIRECTION ( 'NONE',  ( 5.256737805990323064E-16, -1.000000000000000000, 0.000000000000000000 ) ) ;
#290 = PERSON_AND_ORGANIZATION_ROLE ( 'classification_officer' ) ;
#291 = CARTESIAN_POINT ( 'NONE',  ( -6.600000000000000533, 10.19999999999999751, 3.000000000000000000 ) ) ;
#292 = CARTESIAN_POINT ( 'NONE',  ( -6.600000000000001421, -8.572527594031473190E-16, 0.000000000000000000 ) ) ;
#293 = VECTOR ( 'NONE', #50, 1000.000000000000000 ) ;
#294 = DATE_TIME_ROLE ( 'classification_date' ) ;
#295 = PLANE ( 'NONE',  #82 ) ;
#296 = CARTESIAN_POINT ( 'NONE',  ( -6.600000000000000533, 0.000000000000000000, -2.500000000000000000 ) ) ;
#297 = CARTESIAN_POINT ( 'NONE',  ( 0.000000000000000000, 0.000000000000000000, 3.000000000000000000 ) ) ;
#298 = EDGE_CURVE ( 'NONE', #186, #257, #181, .T. ) ;
#299 = APPROVAL_PERSON_ORGANIZATION ( #161, #194, #3 ) ;
#300 = DIRECTION ( 'NONE',  ( 6.012915359542637371E-17, 0.7071067811865470176, -0.7071067811865480168 ) ) ;
#301 = CARTESIAN_POINT ( 'NONE',  ( 0.000000000000000000, 0.000000000000000000, 3.000000000000000000 ) ) ;
#302 = DIRECTION ( 'NONE',  ( 8.503546450866699582E-17, 1.000000000000000000, 0.000000000000000000 ) ) ;
#303 =( GEOMETRIC_REPRESENTATION_CONTEXT ( 3 ) GLOBAL_UNCERTAINTY_ASSIGNED_CONTEXT ( ( #96 ) ) GLOBAL_UNIT_ASSIGNED_CONTEXT ( ( #176, #227, #41 ) ) REPRESENTATION_CONTEXT ( 'NONE', 'WORKASPACE' ) );
#304 = DIRECTION ( 'NONE',  ( 0.000000000000000000, -0.000000000000000000, 1.000000000000000000 ) ) ;
#305 = CARTESIAN_POINT ( 'NONE',  ( -6.600000000000000533, 3.000000000000000000, -2.500000000000000000 ) ) ;
#306 = VERTEX_POINT ( 'NONE', #179 ) ;
#307 = ORIENTED_EDGE ( 'NONE', *, *, #58, .T. ) ;
#308 = LINE ( 'NONE', #83, #149 ) ;
#309 = EDGE_CURVE ( 'NONE', #188, #257, #118, .T. ) ;
#310 = ORIENTED_EDGE ( 'NONE', *, *, #98, .F. ) ;
#311 = ORIENTED_EDGE ( 'NONE', *, *, #262, .T. ) ;
#312 = ADVANCED_FACE ( 'NONE', ( #40 ), #44, .F. ) ;
#313 = DATE_AND_TIME ( #90, #279 ) ;
#314 = CARTESIAN_POINT ( 'NONE',  ( 0.000000000000000000, 0.000000000000000000, 3.000000000000000000 ) ) ;
#315 = VECTOR ( 'NONE', #171, 1000.000000000000000 ) ;
#316 = ADVANCED_FACE ( 'NONE', ( #324 ), #147, .F. ) ;
#317 = LINE ( 'NONE', #296, #256 ) ;
#318 = DIRECTION ( 'NONE',  ( -6.012915359542638603E-17, -0.7071067811865470176, 0.7071067811865480168 ) ) ;
#319 = DIRECTION ( 'NONE',  ( -8.503546450866699582E-17, -1.000000000000000000, 0.000000000000000000 ) ) ;
#320 = CC_DESIGN_APPROVAL ( #194, ( #49 ) ) ;
#321 = COORDINATED_UNIVERSAL_TIME_OFFSET ( 9, 0, .AHEAD. ) ;
#322 = CARTESIAN_POINT ( 'NONE',  ( -6.600000000000001421, -8.572527594031473190E-16, 3.000000000000000000 ) ) ;
#323 = CARTESIAN_POINT ( 'NONE',  ( 0.000000000000000000, 3.000000000000000000, 0.000000000000000000 ) ) ;
#324 = FACE_OUTER_BOUND ( 'NONE', #189, .T. ) ;
#325 = AXIS2_PLACEMENT_3D ( 'NONE', #248, #199, #273 ) ;
#326 = ORIENTED_EDGE ( 'NONE', *, *, #218, .T. ) ;
#327 = DIRECTION ( 'NONE',  ( -1.000000000000000000, -1.298867817277495609E-16, 0.000000000000000000 ) ) ;
#328 = ORIENTED_EDGE ( 'NONE', *, *, #46, .F. ) ;
#329 = DIRECTION ( 'NONE',  ( -0.000000000000000000, -1.000000000000000000, -0.000000000000000000 ) ) ;
#330 = VERTEX_POINT ( 'NONE', #12 ) ;
#331 = EDGE_LOOP ( 'NONE', ( #284, #69, #310, #107, #187, #104, #122 ) ) ;
#332 = VECTOR ( 'NONE', #272, 1000.000000000000000 ) ;
#333 = ORIENTED_EDGE ( 'NONE', *, *, #85, .F. ) ;
#334 = DIRECTION ( 'NONE',  ( 0.000000000000000000, -0.000000000000000000, 1.000000000000000000 ) ) ;
#335 = APPROVAL_STATUS ( 'not_yet_approved' ) ;
#336 = ORIENTED_EDGE ( 'NONE', *, *, #253, .F. ) ;
ENDSEC;
END-ISO-10303-21;
