ISO-10303-21;
HEADER;
FILE_DESCRIPTION (( 'STEP AP214' ),
    '1' );
FILE_NAME ('SPVQ6R0100_Ñº¤·×Ó.STEP',
    '2024-01-26T04:13:43',
    ( '' ),
    ( '' ),
    'SwSTEP 2.0',
    'SolidWorks 2021',
    '' );
FILE_SCHEMA (( 'AUTOMOTIVE_DESIGN' ));
ENDSEC;

DATA;
#1 = VECTOR ( 'NONE', #60, 1000.000000000000000 ) ;
#2 = ADVANCED_FACE ( 'NONE', ( #176 ), #261, .F. ) ;
#3 = DIRECTION ( 'NONE',  ( 1.000000000000000000, 0.000000000000000000, -0.000000000000000000 ) ) ;
#4 = ORIENTED_EDGE ( 'NONE', *, *, #253, .F. ) ;
#5 = DIRECTION ( 'NONE',  ( 0.000000000000000000, 0.000000000000000000, 1.000000000000000000 ) ) ;
#6 = VERTEX_POINT ( 'NONE', #151 ) ;
#7 = EDGE_CURVE ( 'NONE', #133, #156, #264, .T. ) ;
#8 = CARTESIAN_POINT ( 'NONE',  ( 5.499999999999998224, 4.750000000000003553, 0.000000000000000000 ) ) ;
#9 = CARTESIAN_POINT ( 'NONE',  ( 5.499999999999998224, -1.749999999999999778, 4.450000000000001066 ) ) ;
#10 = PLANE ( 'NONE',  #126 ) ;
#11 = STYLED_ITEM ( 'NONE', ( #175 ), #48 ) ;
#12 = ORIENTED_EDGE ( 'NONE', *, *, #7, .F. ) ;
#13 = VECTOR ( 'NONE', #190, 1000.000000000000000 ) ;
#14 = DIRECTION ( 'NONE',  ( 0.000000000000000000, 1.000000000000000000, 0.000000000000000000 ) ) ;
#15 = DIRECTION ( 'NONE',  ( -1.000000000000000000, -3.154042683594195121E-16, 0.000000000000000000 ) ) ;
#16 = ORIENTED_EDGE ( 'NONE', *, *, #72, .F. ) ;
#17 = EDGE_CURVE ( 'NONE', #157, #178, #182, .T. ) ;
#18 = DIRECTION ( 'NONE',  ( 1.000000000000000000, 3.154042683594195121E-16, 0.000000000000000000 ) ) ;
#19 = FACE_OUTER_BOUND ( 'NONE', #241, .T. ) ;
#20 = DIRECTION ( 'NONE',  ( 1.000000000000000000, 0.000000000000000000, -0.000000000000000000 ) ) ;
#21 = EDGE_CURVE ( 'NONE', #178, #245, #246, .T. ) ;
#22 = DIRECTION ( 'NONE',  ( -1.000000000000000000, 3.154042683594195121E-16, 0.000000000000000000 ) ) ;
#23 = EDGE_CURVE ( 'NONE', #224, #157, #113, .T. ) ;
#24 = DIRECTION ( 'NONE',  ( 1.000000000000000000, -3.154042683594195121E-16, 0.000000000000000000 ) ) ;
#25 = AXIS2_PLACEMENT_3D ( 'NONE', #179, #65, #18 ) ;
#26 = CARTESIAN_POINT ( 'NONE',  ( -1.627486024734605370E-15, -5.160000000000001030, 0.000000000000000000 ) ) ;
#27 = DIRECTION ( 'NONE',  ( 1.000000000000000000, 0.000000000000000000, -0.000000000000000000 ) ) ;
#28 =( NAMED_UNIT ( * ) PLANE_ANGLE_UNIT ( ) SI_UNIT ( $, .RADIAN. ) );
#29 = SURFACE_STYLE_FILL_AREA ( #239 ) ;
#30 = EDGE_LOOP ( 'NONE', ( #103, #200, #171, #56 ) ) ;
#31 = CARTESIAN_POINT ( 'NONE',  ( 5.499999999999998224, -5.160000000000002807, 0.000000000000000000 ) ) ;
#32 = EDGE_LOOP ( 'NONE', ( #34, #199, #16, #64 ) ) ;
#33 = PRESENTATION_LAYER_ASSIGNMENT (  '', '', ( #11 ) ) ;
#34 = ORIENTED_EDGE ( 'NONE', *, *, #197, .T. ) ;
#35 = DIRECTION ( 'NONE',  ( -0.000000000000000000, -0.000000000000000000, -1.000000000000000000 ) ) ;
#36 = ORIENTED_EDGE ( 'NONE', *, *, #203, .T. ) ;
#37 = COLOUR_RGB ( '',0.7529411764705882248, 0.7529411764705882248, 0.7529411764705882248 ) ;
#38 = CLOSED_SHELL ( 'NONE', ( #2, #172, #81, #225, #140, #248, #62, #95 ) ) ;
#39 = CARTESIAN_POINT ( 'NONE',  ( -5.500000000000001776, -5.159999999999999254, 4.450000000000001066 ) ) ;
#40 = EDGE_CURVE ( 'NONE', #149, #224, #55, .T. ) ;
#41 = CARTESIAN_POINT ( 'NONE',  ( 5.499999999999998224, -1.750000000000000666, 2.000000000000000000 ) ) ;
#42 = VECTOR ( 'NONE', #52, 1000.000000000000000 ) ;
#43 = EDGE_CURVE ( 'NONE', #149, #133, #74, .T. ) ;
#44 = CARTESIAN_POINT ( 'NONE',  ( -5.500000000000001776, 4.750000000000000000, 2.000000000000000000 ) ) ;
#45 = LINE ( 'NONE', #234, #63 ) ;
#46 = LINE ( 'NONE', #118, #58 ) ;
#47 = DIRECTION ( 'NONE',  ( 0.000000000000000000, 0.000000000000000000, 1.000000000000000000 ) ) ;
#48 = ADVANCED_BREP_SHAPE_REPRESENTATION ( '', ( #216, #170 ), #78 ) ;
#49 = EDGE_CURVE ( 'NONE', #252, #6, #230, .T. ) ;
#50 = EDGE_LOOP ( 'NONE', ( #84, #106, #185, #235 ) ) ;
#51 = DIRECTION ( 'NONE',  ( 0.000000000000000000, -1.000000000000000000, 0.000000000000000000 ) ) ;
#52 = DIRECTION ( 'NONE',  ( 0.000000000000000000, -1.000000000000000000, 0.000000000000000000 ) ) ;
#53 = EDGE_CURVE ( 'NONE', #116, #195, #46, .T. ) ;
#54 = ORIENTED_EDGE ( 'NONE', *, *, #7, .T. ) ;
#55 = LINE ( 'NONE', #223, #100 ) ;
#56 = ORIENTED_EDGE ( 'NONE', *, *, #17, .F. ) ;
#57 = CARTESIAN_POINT ( 'NONE',  ( 5.499999999999998224, -4.750000000000003553, 2.000000000000000000 ) ) ;
#58 = VECTOR ( 'NONE', #123, 1000.000000000000000 ) ;
#59 = CARTESIAN_POINT ( 'NONE',  ( 5.499999999999998224, -1.749999999999999778, 2.000000000000000000 ) ) ;
#60 = DIRECTION ( 'NONE',  ( -1.000000000000000000, -3.154042683594195121E-16, 0.000000000000000000 ) ) ;
#61 = LINE ( 'NONE', #101, #13 ) ;
#62 = ADVANCED_FACE ( 'NONE', ( #210 ), #268, .T. ) ;
#63 = VECTOR ( 'NONE', #80, 1000.000000000000000 ) ;
#64 = ORIENTED_EDGE ( 'NONE', *, *, #53, .T. ) ;
#65 = DIRECTION ( 'NONE',  ( 3.154042683594195121E-16, -1.000000000000000000, 0.000000000000000000 ) ) ;
#66 =( NAMED_UNIT ( * ) SI_UNIT ( $, .STERADIAN. ) SOLID_ANGLE_UNIT ( ) );
#67 = ORIENTED_EDGE ( 'NONE', *, *, #23, .T. ) ;
#68 = VECTOR ( 'NONE', #15, 1000.000000000000000 ) ;
#69 = CARTESIAN_POINT ( 'NONE',  ( -5.500000000000001776, 4.750000000000000000, 0.000000000000000000 ) ) ;
#70 = EDGE_LOOP ( 'NONE', ( #114, #92, #146, #129 ) ) ;
#71 = DIRECTION ( 'NONE',  ( -1.000000000000000000, -1.577021341797097560E-16, 0.000000000000000000 ) ) ;
#72 = EDGE_CURVE ( 'NONE', #116, #191, #122, .T. ) ;
#73 = MECHANICAL_DESIGN_GEOMETRIC_PRESENTATION_REPRESENTATION (  '', ( #11 ), #135 ) ;
#74 = LINE ( 'NONE', #183, #1 ) ;
#75 = PRESENTATION_LAYER_ASSIGNMENT (  '', '', ( #214 ) ) ;
#76 = AXIS2_PLACEMENT_3D ( 'NONE', #250, #164, #144 ) ;
#77 = CARTESIAN_POINT ( 'NONE',  ( -5.500000000000001776, 4.750000000000000000, 0.000000000000000000 ) ) ;
#78 =( GEOMETRIC_REPRESENTATION_CONTEXT ( 3 ) GLOBAL_UNCERTAINTY_ASSIGNED_CONTEXT ( ( #240 ) ) GLOBAL_UNIT_ASSIGNED_CONTEXT ( ( #236, #257, #66 ) ) REPRESENTATION_CONTEXT ( 'NONE', 'WORKASPACE' ) );
#79 = VECTOR ( 'NONE', #243, 1000.000000000000000 ) ;
#80 = DIRECTION ( 'NONE',  ( 0.000000000000000000, 1.000000000000000000, 0.000000000000000000 ) ) ;
#81 = ADVANCED_FACE ( 'NONE', ( #83 ), #208, .F. ) ;
#82 = SHAPE_DEFINITION_REPRESENTATION ( #120, #48 ) ;
#83 = FACE_OUTER_BOUND ( 'NONE', #231, .T. ) ;
#84 = ORIENTED_EDGE ( 'NONE', *, *, #189, .T. ) ;
#85 = VECTOR ( 'NONE', #5, 1000.000000000000000 ) ;
#86 = APPLICATION_PROTOCOL_DEFINITION ( 'draft international standard', 'automotive_design', 1998, #105 ) ;
#87 = SURFACE_SIDE_STYLE ('',( #177 ) ) ;
#88 = ORIENTED_EDGE ( 'NONE', *, *, #150, .T. ) ;
#89 = SURFACE_STYLE_USAGE ( .BOTH. , #109 ) ;
#90 = VECTOR ( 'NONE', #14, 1000.000000000000000 ) ;
#91 = ORIENTED_EDGE ( 'NONE', *, *, #40, .T. ) ;
#92 = ORIENTED_EDGE ( 'NONE', *, *, #232, .T. ) ;
#93 = ORIENTED_EDGE ( 'NONE', *, *, #194, .T. ) ;
#94 = ORIENTED_EDGE ( 'NONE', *, *, #197, .F. ) ;
#95 = ADVANCED_FACE ( 'NONE', ( #188 ), #163, .T. ) ;
#96 = CARTESIAN_POINT ( 'NONE',  ( 5.499999999999998224, -1.749999999999999778, 4.450000000000001066 ) ) ;
#97 = PLANE ( 'NONE',  #267 ) ;
#98 = CARTESIAN_POINT ( 'NONE',  ( 5.499999999999998224, -5.160000000000002807, 0.000000000000000000 ) ) ;
#99 = AXIS2_PLACEMENT_3D ( 'NONE', #26, #255, #24 ) ;
#100 = VECTOR ( 'NONE', #35, 1000.000000000000000 ) ;
#101 = CARTESIAN_POINT ( 'NONE',  ( -5.500000000000001776, -1.750000000000001554, 4.450000000000001066 ) ) ;
#102 = EDGE_CURVE ( 'NONE', #245, #224, #45, .T. ) ;
#103 = ORIENTED_EDGE ( 'NONE', *, *, #23, .F. ) ;
#104 = CARTESIAN_POINT ( 'NONE',  ( 5.499999999999998224, -1.749999999999999778, 4.450000000000001066 ) ) ;
#105 = APPLICATION_CONTEXT ( 'automotive_design' ) ;
#106 = ORIENTED_EDGE ( 'NONE', *, *, #21, .T. ) ;
#107 = LINE ( 'NONE', #108, #90 ) ;
#108 = CARTESIAN_POINT ( 'NONE',  ( 5.499999999999998224, -4.750000000000003553, 4.450000000000001066 ) ) ;
#109 = SURFACE_SIDE_STYLE ('',( #29 ) ) ;
#110 = ORIENTED_EDGE ( 'NONE', *, *, #155, .F. ) ;
#111 = CARTESIAN_POINT ( 'NONE',  ( 5.499999999999998224, -5.160000000000002807, 4.450000000000001066 ) ) ;
#112 = VECTOR ( 'NONE', #162, 1000.000000000000000 ) ;
#113 = LINE ( 'NONE', #196, #68 ) ;
#114 = ORIENTED_EDGE ( 'NONE', *, *, #72, .T. ) ;
#115 = ORIENTED_EDGE ( 'NONE', *, *, #189, .F. ) ;
#116 = VERTEX_POINT ( 'NONE', #104 ) ;
#117 = DIRECTION ( 'NONE',  ( 0.000000000000000000, 0.000000000000000000, -1.000000000000000000 ) ) ;
#118 = CARTESIAN_POINT ( 'NONE',  ( 5.499999999999998224, -1.749999999999999778, 4.450000000000001066 ) ) ;
#119 = UNCERTAINTY_MEASURE_WITH_UNIT (LENGTH_MEASURE( 1.000000000000000082E-05 ), #221, 'distance_accuracy_value', 'NONE');
#120 = PRODUCT_DEFINITION_SHAPE ( 'NONE', 'NONE',  #145 ) ;
#121 = FACE_OUTER_BOUND ( 'NONE', #30, .T. ) ;
#122 = LINE ( 'NONE', #96, #165 ) ;
#123 = DIRECTION ( 'NONE',  ( -0.000000000000000000, -0.000000000000000000, -1.000000000000000000 ) ) ;
#124 = CARTESIAN_POINT ( 'NONE',  ( -5.500000000000001776, -1.750000000000001554, 4.450000000000001066 ) ) ;
#125 = ORIENTED_EDGE ( 'NONE', *, *, #40, .F. ) ;
#126 = AXIS2_PLACEMENT_3D ( 'NONE', #147, #47, #27 ) ;
#127 = DIRECTION ( 'NONE',  ( 1.577021341797097807E-16, -1.000000000000000000, 0.000000000000000000 ) ) ;
#128 = SURFACE_STYLE_USAGE ( .BOTH. , #87 ) ;
#129 = ORIENTED_EDGE ( 'NONE', *, *, #253, .T. ) ;
#130 = FILL_AREA_STYLE_COLOUR ( '', #166 ) ;
#131 = DIRECTION ( 'NONE',  ( 1.000000000000000000, -3.154042683594195121E-16, 0.000000000000000000 ) ) ;
#132 = ORIENTED_EDGE ( 'NONE', *, *, #17, .T. ) ;
#133 = VERTEX_POINT ( 'NONE', #44 ) ;
#134 = ORIENTED_EDGE ( 'NONE', *, *, #102, .T. ) ;
#135 =( GEOMETRIC_REPRESENTATION_CONTEXT ( 3 ) GLOBAL_UNCERTAINTY_ASSIGNED_CONTEXT ( ( #119 ) ) GLOBAL_UNIT_ASSIGNED_CONTEXT ( ( #221, #198, #168 ) ) REPRESENTATION_CONTEXT ( 'NONE', 'WORKASPACE' ) );
#136 = LINE ( 'NONE', #39, #228 ) ;
#137 = PRODUCT_RELATED_PRODUCT_CATEGORY ( 'part', '', ( #229 ) ) ;
#138 = CARTESIAN_POINT ( 'NONE',  ( 5.499999999999998224, -4.750000000000003553, 2.000000000000000000 ) ) ;
#139 = VECTOR ( 'NONE', #167, 1000.000000000000000 ) ;
#140 = ADVANCED_FACE ( 'NONE', ( #121 ), #97, .F. ) ;
#141 = CARTESIAN_POINT ( 'NONE',  ( 5.499999999999998224, -5.160000000000002807, 4.450000000000001066 ) ) ;
#142 = ORIENTED_EDGE ( 'NONE', *, *, #194, .F. ) ;
#143 = CARTESIAN_POINT ( 'NONE',  ( 0.000000000000000000, 0.000000000000000000, 0.000000000000000000 ) ) ;
#144 = DIRECTION ( 'NONE',  ( -0.000000000000000000, 0.000000000000000000, -1.000000000000000000 ) ) ;
#145 = PRODUCT_DEFINITION ( 'Î´Öª', '', #159, #201 ) ;
#146 = ORIENTED_EDGE ( 'NONE', *, *, #49, .F. ) ;
#147 = CARTESIAN_POINT ( 'NONE',  ( 0.000000000000000000, 0.000000000000000000, 2.000000000000000000 ) ) ;
#148 = FILL_AREA_STYLE_COLOUR ( '', #37 ) ;
#149 = VERTEX_POINT ( 'NONE', #254 ) ;
#150 = EDGE_CURVE ( 'NONE', #191, #156, #61, .T. ) ;
#151 = CARTESIAN_POINT ( 'NONE',  ( -5.500000000000001776, -5.159999999999999254, 4.450000000000001066 ) ) ;
#152 = FACE_OUTER_BOUND ( 'NONE', #32, .T. ) ;
#153 = ORIENTED_EDGE ( 'NONE', *, *, #43, .T. ) ;
#154 = VECTOR ( 'NONE', #51, 1000.000000000000000 ) ;
#155 = EDGE_CURVE ( 'NONE', #245, #252, #233, .T. ) ;
#156 = VERTEX_POINT ( 'NONE', #186 ) ;
#157 = VERTEX_POINT ( 'NONE', #77 ) ;
#158 = DIRECTION ( 'NONE',  ( -1.000000000000000000, 0.000000000000000000, 0.000000000000000000 ) ) ;
#159 = PRODUCT_DEFINITION_FORMATION_WITH_SPECIFIED_SOURCE ( 'ÈÎºÎ', '', #229, .NOT_KNOWN. ) ;
#160 = LINE ( 'NONE', #138, #112 ) ;
#161 = VECTOR ( 'NONE', #242, 1000.000000000000000 ) ;
#162 = DIRECTION ( 'NONE',  ( 0.000000000000000000, 1.000000000000000000, 0.000000000000000000 ) ) ;
#163 = PLANE ( 'NONE',  #99 ) ;
#164 = DIRECTION ( 'NONE',  ( 1.000000000000000000, 0.000000000000000000, -0.000000000000000000 ) ) ;
#165 = VECTOR ( 'NONE', #71, 1000.000000000000000 ) ;
#166 = COLOUR_RGB ( '',0.7529411764705882248, 0.7529411764705882248, 0.7529411764705882248 ) ;
#167 = DIRECTION ( 'NONE',  ( -1.000000000000000000, -1.577021341797097560E-16, 0.000000000000000000 ) ) ;
#168 =( NAMED_UNIT ( * ) SI_UNIT ( $, .STERADIAN. ) SOLID_ANGLE_UNIT ( ) );
#169 = LINE ( 'NONE', #124, #154 ) ;
#170 = AXIS2_PLACEMENT_3D ( 'NONE', #237, #211, #260 ) ;
#171 = ORIENTED_EDGE ( 'NONE', *, *, #21, .F. ) ;
#172 = ADVANCED_FACE ( 'NONE', ( #19 ), #184, .F. ) ;
#173 = MECHANICAL_DESIGN_GEOMETRIC_PRESENTATION_REPRESENTATION (  '', ( #214 ), #180 ) ;
#174 = VECTOR ( 'NONE', #131, 1000.000000000000000 ) ;
#175 = PRESENTATION_STYLE_ASSIGNMENT (( #89 ) ) ;
#176 = FACE_OUTER_BOUND ( 'NONE', #247, .T. ) ;
#177 = SURFACE_STYLE_FILL_AREA ( #219 ) ;
#178 = VERTEX_POINT ( 'NONE', #249 ) ;
#179 = CARTESIAN_POINT ( 'NONE',  ( 5.499999999999998224, 4.750000000000003553, 2.000000000000000000 ) ) ;
#180 =( GEOMETRIC_REPRESENTATION_CONTEXT ( 3 ) GLOBAL_UNCERTAINTY_ASSIGNED_CONTEXT ( ( #205 ) ) GLOBAL_UNIT_ASSIGNED_CONTEXT ( ( #238, #28, #192 ) ) REPRESENTATION_CONTEXT ( 'NONE', 'WORKASPACE' ) );
#181 = VECTOR ( 'NONE', #22, 1000.000000000000000 ) ;
#182 = LINE ( 'NONE', #69, #42 ) ;
#183 = CARTESIAN_POINT ( 'NONE',  ( 5.499999999999998224, 4.750000000000003553, 2.000000000000000000 ) ) ;
#184 = PLANE ( 'NONE',  #76 ) ;
#185 = ORIENTED_EDGE ( 'NONE', *, *, #155, .T. ) ;
#186 = CARTESIAN_POINT ( 'NONE',  ( -5.500000000000001776, -1.750000000000001554, 2.000000000000000000 ) ) ;
#187 = APPLICATION_CONTEXT ( 'automotive_design' ) ;
#188 = FACE_OUTER_BOUND ( 'NONE', #50, .T. ) ;
#189 = EDGE_CURVE ( 'NONE', #6, #178, #136, .T. ) ;
#190 = DIRECTION ( 'NONE',  ( -0.000000000000000000, -0.000000000000000000, -1.000000000000000000 ) ) ;
#191 = VERTEX_POINT ( 'NONE', #266 ) ;
#192 =( NAMED_UNIT ( * ) SI_UNIT ( $, .STERADIAN. ) SOLID_ANGLE_UNIT ( ) );
#193 = PRESENTATION_STYLE_ASSIGNMENT (( #128 ) ) ;
#194 = EDGE_CURVE ( 'NONE', #195, #149, #160, .T. ) ;
#195 = VERTEX_POINT ( 'NONE', #41 ) ;
#196 = CARTESIAN_POINT ( 'NONE',  ( 5.499999999999998224, 4.750000000000003553, 0.000000000000000000 ) ) ;
#197 = EDGE_CURVE ( 'NONE', #195, #156, #251, .T. ) ;
#198 =( NAMED_UNIT ( * ) PLANE_ANGLE_UNIT ( ) SI_UNIT ( $, .RADIAN. ) );
#199 = ORIENTED_EDGE ( 'NONE', *, *, #150, .F. ) ;
#200 = ORIENTED_EDGE ( 'NONE', *, *, #102, .F. ) ;
#201 = PRODUCT_DEFINITION_CONTEXT ( 'detailed design', #187, 'design' ) ;
#202 = ORIENTED_EDGE ( 'NONE', *, *, #43, .F. ) ;
#203 = EDGE_CURVE ( 'NONE', #133, #157, #212, .T. ) ;
#204 = DIRECTION ( 'NONE',  ( 0.000000000000000000, 0.000000000000000000, 1.000000000000000000 ) ) ;
#205 = UNCERTAINTY_MEASURE_WITH_UNIT (LENGTH_MEASURE( 1.000000000000000082E-05 ), #238, 'distance_accuracy_value', 'NONE');
#206 = DIRECTION ( 'NONE',  ( 0.000000000000000000, 0.000000000000000000, 1.000000000000000000 ) ) ;
#207 = AXIS2_PLACEMENT_3D ( 'NONE', #57, #158, #204 ) ;
#208 = PLANE ( 'NONE',  #207 ) ;
#209 = AXIS2_PLACEMENT_3D ( 'NONE', #9, #127, #262 ) ;
#210 = FACE_OUTER_BOUND ( 'NONE', #70, .T. ) ;
#211 = DIRECTION ( 'NONE',  ( 0.000000000000000000, 0.000000000000000000, 1.000000000000000000 ) ) ;
#212 = LINE ( 'NONE', #244, #161 ) ;
#213 = APPLICATION_PROTOCOL_DEFINITION ( 'draft international standard', 'automotive_design', 1998, #187 ) ;
#214 = STYLED_ITEM ( 'NONE', ( #193 ), #216 ) ;
#215 = PRODUCT_CONTEXT ( 'NONE', #105, 'mechanical' ) ;
#216 = MANIFOLD_SOLID_BREP ( 'Í¹Ì¨-À­Éì3', #38 ) ;
#217 = FACE_OUTER_BOUND ( 'NONE', #222, .T. ) ;
#218 = ORIENTED_EDGE ( 'NONE', *, *, #53, .F. ) ;
#219 = FILL_AREA_STYLE ('',( #130 ) ) ;
#220 = CARTESIAN_POINT ( 'NONE',  ( -5.500000000000001776, -5.159999999999999254, 0.000000000000000000 ) ) ;
#221 =( LENGTH_UNIT ( ) NAMED_UNIT ( * ) SI_UNIT ( .MILLI., .METRE. ) );
#222 = EDGE_LOOP ( 'NONE', ( #94, #93, #153, #54 ) ) ;
#223 = CARTESIAN_POINT ( 'NONE',  ( 5.499999999999998224, 4.750000000000003553, 2.000000000000000000 ) ) ;
#224 = VERTEX_POINT ( 'NONE', #8 ) ;
#225 = ADVANCED_FACE ( 'NONE', ( #217 ), #10, .T. ) ;
#226 = CARTESIAN_POINT ( 'NONE',  ( 0.000000000000000000, 0.000000000000000000, 4.450000000000001066 ) ) ;
#227 = DIRECTION ( 'NONE',  ( 0.000000000000000000, 0.000000000000000000, 1.000000000000000000 ) ) ;
#228 = VECTOR ( 'NONE', #117, 1000.000000000000000 ) ;
#229 = PRODUCT ( '', '', '', ( #215 ) ) ;
#230 = LINE ( 'NONE', #141, #181 ) ;
#231 = EDGE_LOOP ( 'NONE', ( #134, #125, #142, #218, #4, #110 ) ) ;
#232 = EDGE_CURVE ( 'NONE', #191, #6, #169, .T. ) ;
#233 = LINE ( 'NONE', #98, #85 ) ;
#234 = CARTESIAN_POINT ( 'NONE',  ( 5.499999999999998224, -4.750000000000003553, 0.000000000000000000 ) ) ;
#235 = ORIENTED_EDGE ( 'NONE', *, *, #49, .T. ) ;
#236 =( LENGTH_UNIT ( ) NAMED_UNIT ( * ) SI_UNIT ( .MILLI., .METRE. ) );
#237 = CARTESIAN_POINT ( 'NONE',  ( 0.000000000000000000, 0.000000000000000000, 0.000000000000000000 ) ) ;
#238 =( LENGTH_UNIT ( ) NAMED_UNIT ( * ) SI_UNIT ( .MILLI., .METRE. ) );
#239 = FILL_AREA_STYLE ('',( #148 ) ) ;
#240 = UNCERTAINTY_MEASURE_WITH_UNIT (LENGTH_MEASURE( 1.000000000000000082E-05 ), #236, 'distance_accuracy_value', 'NONE');
#241 = EDGE_LOOP ( 'NONE', ( #132, #115, #263, #88, #12, #36 ) ) ;
#242 = DIRECTION ( 'NONE',  ( -0.000000000000000000, -0.000000000000000000, -1.000000000000000000 ) ) ;
#243 = DIRECTION ( 'NONE',  ( 0.000000000000000000, -1.000000000000000000, 0.000000000000000000 ) ) ;
#244 = CARTESIAN_POINT ( 'NONE',  ( -5.500000000000001776, 4.750000000000000000, 2.000000000000000000 ) ) ;
#245 = VERTEX_POINT ( 'NONE', #31 ) ;
#246 = LINE ( 'NONE', #220, #174 ) ;
#247 = EDGE_LOOP ( 'NONE', ( #67, #259, #202, #91 ) ) ;
#248 = ADVANCED_FACE ( 'NONE', ( #152 ), #258, .F. ) ;
#249 = CARTESIAN_POINT ( 'NONE',  ( -5.500000000000001776, -5.159999999999999254, 0.000000000000000000 ) ) ;
#250 = CARTESIAN_POINT ( 'NONE',  ( -5.500000000000001776, 4.750000000000000000, 2.000000000000000000 ) ) ;
#251 = LINE ( 'NONE', #59, #139 ) ;
#252 = VERTEX_POINT ( 'NONE', #111 ) ;
#253 = EDGE_CURVE ( 'NONE', #252, #116, #107, .T. ) ;
#254 = CARTESIAN_POINT ( 'NONE',  ( 5.499999999999998224, 4.750000000000003553, 2.000000000000000000 ) ) ;
#255 = DIRECTION ( 'NONE',  ( -3.154042683594195121E-16, -1.000000000000000000, 0.000000000000000000 ) ) ;
#256 = AXIS2_PLACEMENT_3D ( 'NONE', #226, #227, #20 ) ;
#257 =( NAMED_UNIT ( * ) PLANE_ANGLE_UNIT ( ) SI_UNIT ( $, .RADIAN. ) );
#258 = PLANE ( 'NONE',  #209 ) ;
#259 = ORIENTED_EDGE ( 'NONE', *, *, #203, .F. ) ;
#260 = DIRECTION ( 'NONE',  ( 1.000000000000000000, 0.000000000000000000, 0.000000000000000000 ) ) ;
#261 = PLANE ( 'NONE',  #25 ) ;
#262 = DIRECTION ( 'NONE',  ( 1.000000000000000000, 1.577021341797097807E-16, 0.000000000000000000 ) ) ;
#263 = ORIENTED_EDGE ( 'NONE', *, *, #232, .F. ) ;
#264 = LINE ( 'NONE', #265, #79 ) ;
#265 = CARTESIAN_POINT ( 'NONE',  ( -5.500000000000001776, 4.750000000000000000, 2.000000000000000000 ) ) ;
#266 = CARTESIAN_POINT ( 'NONE',  ( -5.500000000000001776, -1.750000000000001554, 4.450000000000001066 ) ) ;
#267 = AXIS2_PLACEMENT_3D ( 'NONE', #143, #206, #3 ) ;
#268 = PLANE ( 'NONE',  #256 ) ;
ENDSEC;
END-ISO-10303-21;
